ISO-10303-21;
HEADER;
FILE_DESCRIPTION (( 'STEP AP203' ),
    '1' );
FILE_NAME ('Q-OZHWP-R2-10-405-M.STEP',
    '2020-12-22T09:11:43',
    ( '' ),
    ( '' ),
    'SwSTEP 2.0',
    'SolidWorks 2020',
    '' );
FILE_SCHEMA (( 'CONFIG_CONTROL_DESIGN' ));
ENDSEC;

DATA;
#1 = ORIENTED_EDGE ( 'NONE', *, *, #161, .T. ) ;
#2 = AXIS2_PLACEMENT_3D ( 'NONE', #301, #49, #282 ) ;
#3 = VERTEX_POINT ( 'NONE', #205 ) ;
#4 = CARTESIAN_POINT ( 'NONE',  ( -3.000000000000000000, 0.000000000000000000, 0.000000000000000000 ) ) ;
#5 = DIRECTION ( 'NONE',  ( -1.000000000000000000, -0.000000000000000000, -0.000000000000000000 ) ) ;
#6 = LOCAL_TIME ( 17, 11, 43.00000000000000000, #195 ) ;
#7 = DIRECTION ( 'NONE',  ( 0.000000000000000000, 0.000000000000000000, -1.000000000000000000 ) ) ;
#8 = CARTESIAN_POINT ( 'NONE',  ( 3.000000000000000000, 0.000000000000000000, 0.000000000000000000 ) ) ;
#9 = CC_DESIGN_PERSON_AND_ORGANIZATION_ASSIGNMENT ( #204, #325, ( #64 ) ) ;
#10 = AXIS2_PLACEMENT_3D ( 'NONE', #34, #86, #59 ) ;
#11 = DIRECTION ( 'NONE',  ( -1.000000000000000000, -0.000000000000000000, -0.000000000000000000 ) ) ;
#12 = CARTESIAN_POINT ( 'NONE',  ( -3.000000000000000000, 5.000000000000000000, 0.000000000000000000 ) ) ;
#13 = CARTESIAN_POINT ( 'NONE',  ( -1.250000000000000222, 6.123233995736767268E-16, -5.000000000000000888 ) ) ;
#14 = ORIENTED_EDGE ( 'NONE', *, *, #84, .T. ) ;
#15 = APPROVAL ( #25, 'UNSPECIFIED' ) ;
#16 = DATE_AND_TIME ( #78, #284 ) ;
#17 = CARTESIAN_POINT ( 'NONE',  ( -1.250000000000000222, 0.000000000000000000, 0.000000000000000000 ) ) ;
#18 = PERSON_AND_ORGANIZATION_ROLE ( 'design_supplier' ) ;
#19 = AXIS2_PLACEMENT_3D ( 'NONE', #140, #243, #40 ) ;
#20 = CIRCLE ( 'NONE', #267, 12.69999999999999929 ) ;
#21 = LINE ( 'NONE', #149, #48 ) ;
#22 = DATE_AND_TIME ( #283, #35 ) ;
#23 = DIRECTION ( 'NONE',  ( -1.000000000000000000, -0.000000000000000000, -0.000000000000000000 ) ) ;
#24 = ORIENTED_EDGE ( 'NONE', *, *, #80, .F. ) ;
#25 = APPROVAL_STATUS ( 'not_yet_approved' ) ;
#26 = PERSON ( 'UNSPECIFIED', 'UNSPECIFIED', 'UNSPECIFIED', ('UNSPECIFIED'), ('UNSPECIFIED'), ('UNSPECIFIED') ) ;
#27 = ORIENTED_EDGE ( 'NONE', *, *, #93, .F. ) ;
#28 = CIRCLE ( 'NONE', #69, 5.000000000000001776 ) ;
#29 = ORIENTED_EDGE ( 'NONE', *, *, #212, .F. ) ;
#30 = ORIENTED_EDGE ( 'NONE', *, *, #266, .T. ) ;
#31 = VECTOR ( 'NONE', #66, 1000.000000000000000 ) ;
#32 = CIRCLE ( 'NONE', #262, 12.69999999999999929 ) ;
#33 = DIRECTION ( 'NONE',  ( -1.000000000000000000, -0.000000000000000000, -0.000000000000000000 ) ) ;
#34 = CARTESIAN_POINT ( 'NONE',  ( -1.614212418857619014, 0.000000000000000000, 0.000000000000000000 ) ) ;
#35 = LOCAL_TIME ( 17, 11, 43.00000000000000000, #232 ) ;
#36 = LINE ( 'NONE', #278, #31 ) ;
#37 = EDGE_CURVE ( 'NONE', #309, #151, #180, .T. ) ;
#38 = AXIS2_PLACEMENT_3D ( 'NONE', #42, #91, #145 ) ;
#39 = DIRECTION ( 'NONE',  ( -1.000000000000000000, 0.000000000000000000, -0.000000000000000000 ) ) ;
#40 = DIRECTION ( 'NONE',  ( 0.000000000000000000, 0.000000000000000000, 1.000000000000000000 ) ) ;
#41 = ORIENTED_EDGE ( 'NONE', *, *, #212, .T. ) ;
#42 = CARTESIAN_POINT ( 'NONE',  ( 1.250000000000000444, 0.000000000000000000, 0.000000000000000000 ) ) ;
#43 = CARTESIAN_POINT ( 'NONE',  ( -1.614212418857619014, 0.000000000000000000, 12.69999999999999929 ) ) ;
#44 = CIRCLE ( 'NONE', #236, 5.000000000000000888 ) ;
#45 = EDGE_LOOP ( 'NONE', ( #234, #129, #237, #50 ) ) ;
#46 =( LENGTH_UNIT ( ) NAMED_UNIT ( * ) SI_UNIT ( .MILLI., .METRE. ) );
#47 = APPROVAL_ROLE ( '' ) ;
#48 = VECTOR ( 'NONE', #23, 1000.000000000000000 ) ;
#49 = DIRECTION ( 'NONE',  ( 1.000000000000000000, 0.000000000000000000, 0.000000000000000000 ) ) ;
#50 = ORIENTED_EDGE ( 'NONE', *, *, #270, .T. ) ;
#51 = PERSON_AND_ORGANIZATION ( #26, #239 ) ;
#52 = ORIENTED_EDGE ( 'NONE', *, *, #133, .T. ) ;
#53 = APPROVAL_PERSON_ORGANIZATION ( #286, #15, #260 ) ;
#54 = EDGE_LOOP ( 'NONE', ( #213, #52 ) ) ;
#55 = LOCAL_TIME ( 17, 11, 43.00000000000000000, #328 ) ;
#56 = VERTEX_POINT ( 'NONE', #334 ) ;
#57 = ORIENTED_EDGE ( 'NONE', *, *, #161, .F. ) ;
#58 = CARTESIAN_POINT ( 'NONE',  ( -1.250000000000000222, 0.000000000000000000, 0.000000000000000000 ) ) ;
#59 = DIRECTION ( 'NONE',  ( 0.000000000000000000, 0.000000000000000000, 1.000000000000000000 ) ) ;
#60 = PLANE ( 'NONE',  #65 ) ;
#61 = AXIS2_PLACEMENT_3D ( 'NONE', #187, #256, #117 ) ;
#62 = CARTESIAN_POINT ( 'NONE',  ( -1.614212418857619014, 0.000000000000000000, 0.000000000000000000 ) ) ;
#63 = FACE_OUTER_BOUND ( 'NONE', #158, .T. ) ;
#64 = PRODUCT_DEFINITION ( 'UNKNOWN', '', #168, #167 ) ;
#65 = AXIS2_PLACEMENT_3D ( 'NONE', #12, #248, #220 ) ;
#66 = DIRECTION ( 'NONE',  ( -1.000000000000000000, -0.000000000000000000, -0.000000000000000000 ) ) ;
#67 = LINE ( 'NONE', #121, #227 ) ;
#68 = LINE ( 'NONE', #125, #277 ) ;
#69 = AXIS2_PLACEMENT_3D ( 'NONE', #8, #5, #115 ) ;
#70 = DIRECTION ( 'NONE',  ( -0.000000000000000000, 0.000000000000000000, 1.000000000000000000 ) ) ;
#71 = COORDINATED_UNIVERSAL_TIME_OFFSET ( 8, 0, .AHEAD. ) ;
#72 = EDGE_LOOP ( 'NONE', ( #177, #122 ) ) ;
#73 = APPROVAL ( #306, 'UNSPECIFIED' ) ;
#74 = FACE_OUTER_BOUND ( 'NONE', #182, .T. ) ;
#75 = DATE_AND_TIME ( #101, #55 ) ;
#76 = CLOSED_SHELL ( 'NONE', ( #235, #276, #88, #186, #143, #169, #228, #110, #287, #295 ) ) ;
#77 = CARTESIAN_POINT ( 'NONE',  ( -1.250000000000000222, 0.000000000000000000, 5.000000000000000888 ) ) ;
#78 = CALENDAR_DATE ( 2020, 22, 12 ) ;
#79 = ORIENTED_EDGE ( 'NONE', *, *, #207, .T. ) ;
#80 = EDGE_CURVE ( 'NONE', #288, #335, #32, .T. ) ;
#81 = CARTESIAN_POINT ( 'NONE',  ( -1.614212418857619014, 0.000000000000000000, 5.000000000000000888 ) ) ;
#82 = CC_DESIGN_DATE_AND_TIME_ASSIGNMENT ( #174, #281, ( #226 ) ) ;
#83 = ORIENTED_EDGE ( 'NONE', *, *, #37, .F. ) ;
#84 = EDGE_CURVE ( 'NONE', #131, #56, #138, .T. ) ;
#85 = CIRCLE ( 'NONE', #61, 12.69999999999999929 ) ;
#86 = DIRECTION ( 'NONE',  ( -1.000000000000000000, -0.000000000000000000, -0.000000000000000000 ) ) ;
#87 = FACE_OUTER_BOUND ( 'NONE', #240, .T. ) ;
#88 = ADVANCED_FACE ( 'NONE', ( #92 ), #275, .F. ) ;
#89 = FACE_OUTER_BOUND ( 'NONE', #279, .T. ) ;
#90 = PRODUCT_RELATED_PRODUCT_CATEGORY ( 'detail', '', ( #214 ) ) ;
#91 = DIRECTION ( 'NONE',  ( -1.000000000000000000, -0.000000000000000000, -0.000000000000000000 ) ) ;
#92 = FACE_OUTER_BOUND ( 'NONE', #162, .T. ) ;
#93 = EDGE_CURVE ( 'NONE', #251, #309, #242, .T. ) ;
#94 = APPROVAL_PERSON_ORGANIZATION ( #255, #73, #331 ) ;
#95 = CARTESIAN_POINT ( 'NONE',  ( -3.000000000000000000, 0.000000000000000000, 0.000000000000000000 ) ) ;
#96 = CC_DESIGN_APPROVAL ( #15, ( #226 ) ) ;
#97 = EDGE_CURVE ( 'NONE', #263, #151, #156, .T. ) ;
#98 = MANIFOLD_SOLID_BREP ( 'Ðý×', #76 ) ;
#99 = SECURITY_CLASSIFICATION_LEVEL ( 'unclassified' ) ;
#100 = MECHANICAL_CONTEXT ( 'NONE', #209, 'mechanical' ) ;
#101 = CALENDAR_DATE ( 2020, 22, 12 ) ;
#102 = DIRECTION ( 'NONE',  ( 1.000000000000000000, 0.000000000000000000, 0.000000000000000000 ) ) ;
#103 = APPLICATION_PROTOCOL_DEFINITION ( 'international standard', 'config_control_design', 1994, #253 ) ;
#104 = ORIENTED_EDGE ( 'NONE', *, *, #249, .T. ) ;
#105 = CC_DESIGN_PERSON_AND_ORGANIZATION_ASSIGNMENT ( #51, #289, ( #214 ) ) ;
#106 = EDGE_LOOP ( 'NONE', ( #233, #41, #24, #268 ) ) ;
#107 = ORIENTED_EDGE ( 'NONE', *, *, #97, .F. ) ;
#108 = AXIS2_PLACEMENT_3D ( 'NONE', #95, #323, #185 ) ;
#109 = ORIENTED_EDGE ( 'NONE', *, *, #201, .T. ) ;
#110 = ADVANCED_FACE ( 'NONE', ( #320 ), #114, .T. ) ;
#111 = AXIS2_PLACEMENT_3D ( 'NONE', #190, #322, #250 ) ;
#112 = ORIENTED_EDGE ( 'NONE', *, *, #97, .T. ) ;
#113 = DIRECTION ( 'NONE',  ( 0.000000000000000000, 0.000000000000000000, 1.000000000000000000 ) ) ;
#114 = CYLINDRICAL_SURFACE ( 'NONE', #247, 12.69999999999999929 ) ;
#115 = DIRECTION ( 'NONE',  ( 0.000000000000000000, 0.000000000000000000, 1.000000000000000000 ) ) ;
#116 = CIRCLE ( 'NONE', #111, 5.000000000000001776 ) ;
#117 = DIRECTION ( 'NONE',  ( 0.000000000000000000, 0.000000000000000000, 1.000000000000000000 ) ) ;
#118 = CARTESIAN_POINT ( 'NONE',  ( 3.000000000000000000, 0.000000000000000000, 12.69999999999999929 ) ) ;
#119 = CARTESIAN_POINT ( 'NONE',  ( -3.000000000000000000, 0.000000000000000000, 0.000000000000000000 ) ) ;
#120 = CYLINDRICAL_SURFACE ( 'NONE', #19, 12.69999999999999929 ) ;
#121 = CARTESIAN_POINT ( 'NONE',  ( -1.614212418857619014, 6.123233995736767268E-16, -5.000000000000000888 ) ) ;
#122 = ORIENTED_EDGE ( 'NONE', *, *, #222, .F. ) ;
#123 = PLANE ( 'NONE',  #188 ) ;
#124 = PERSON_AND_ORGANIZATION ( #26, #239 ) ;
#125 = CARTESIAN_POINT ( 'NONE',  ( -1.614212418857619014, 0.000000000000000000, 5.000000000000000888 ) ) ;
#126 = ORIENTED_EDGE ( 'NONE', *, *, #291, .T. ) ;
#127 = APPROVAL_DATE_TIME ( #157, #73 ) ;
#128 = APPROVAL_STATUS ( 'not_yet_approved' ) ;
#129 = ORIENTED_EDGE ( 'NONE', *, *, #93, .T. ) ;
#130 = APPROVAL_DATE_TIME ( #75, #15 ) ;
#131 = VERTEX_POINT ( 'NONE', #294 ) ;
#132 = AXIS2_PLACEMENT_3D ( 'NONE', #246, #11, #298 ) ;
#133 = EDGE_CURVE ( 'NONE', #335, #288, #85, .T. ) ;
#134 = EDGE_LOOP ( 'NONE', ( #104, #30 ) ) ;
#135 = LOCAL_TIME ( 17, 11, 43.00000000000000000, #153 ) ;
#136 = ORIENTED_EDGE ( 'NONE', *, *, #207, .F. ) ;
#137 = DIRECTION ( 'NONE',  ( 0.000000000000000000, 0.000000000000000000, 1.000000000000000000 ) ) ;
#138 = CIRCLE ( 'NONE', #299, 5.000000000000000000 ) ;
#139 = CC_DESIGN_PERSON_AND_ORGANIZATION_ASSIGNMENT ( #176, #18, ( #168 ) ) ;
#140 = CARTESIAN_POINT ( 'NONE',  ( -1.614212418857619014, 0.000000000000000000, 0.000000000000000000 ) ) ;
#141 = DIRECTION ( 'NONE',  ( 1.000000000000000000, 0.000000000000000000, 0.000000000000000000 ) ) ;
#142 = DIRECTION ( 'NONE',  ( -1.000000000000000000, -0.000000000000000000, -0.000000000000000000 ) ) ;
#143 = ADVANCED_FACE ( 'NONE', ( #63 ), #144, .F. ) ;
#144 = CYLINDRICAL_SURFACE ( 'NONE', #132, 5.000000000000000888 ) ;
#145 = DIRECTION ( 'NONE',  ( 0.000000000000000000, 0.000000000000000000, 1.000000000000000000 ) ) ;
#146 = EDGE_CURVE ( 'NONE', #271, #56, #68, .T. ) ;
#147 = CARTESIAN_POINT ( 'NONE',  ( 3.000000000000000000, 0.000000000000000000, 0.000000000000000000 ) ) ;
#148 = DIRECTION ( 'NONE',  ( 0.000000000000000000, 0.000000000000000000, 1.000000000000000000 ) ) ;
#149 = CARTESIAN_POINT ( 'NONE',  ( -1.614212418857619014, 6.123233995736767268E-16, -5.000000000000000888 ) ) ;
#150 = CC_DESIGN_PERSON_AND_ORGANIZATION_ASSIGNMENT ( #230, #179, ( #226 ) ) ;
#151 = VERTEX_POINT ( 'NONE', #313 ) ;
#152 = VECTOR ( 'NONE', #192, 1000.000000000000000 ) ;
#153 = COORDINATED_UNIVERSAL_TIME_OFFSET ( 8, 0, .AHEAD. ) ;
#154 = CARTESIAN_POINT ( 'NONE',  ( 3.000000000000000000, 12.69999999999999929, 0.000000000000000000 ) ) ;
#155 = SHAPE_DEFINITION_REPRESENTATION ( #333, #165 ) ;
#156 = CIRCLE ( 'NONE', #191, 5.000000000000000000 ) ;
#157 = DATE_AND_TIME ( #261, #6 ) ;
#158 = EDGE_LOOP ( 'NONE', ( #136, #206, #258, #109 ) ) ;
#159 = ORIENTED_EDGE ( 'NONE', *, *, #270, .F. ) ;
#160 = AXIS2_PLACEMENT_3D ( 'NONE', #202, #285, #102 ) ;
#161 = EDGE_CURVE ( 'NONE', #309, #251, #44, .T. ) ;
#162 = EDGE_LOOP ( 'NONE', ( #324, #79, #14, #208 ) ) ;
#163 = ORIENTED_EDGE ( 'NONE', *, *, #84, .F. ) ;
#164 = DIRECTION ( 'NONE',  ( 1.000000000000000000, 0.000000000000000000, 0.000000000000000000 ) ) ;
#165 = ADVANCED_BREP_SHAPE_REPRESENTATION ( 'Q-OZHWP-R2-10-405-M', ( #98, #160 ), #210 ) ;
#166 = DIRECTION ( 'NONE',  ( 0.000000000000000000, 0.000000000000000000, 1.000000000000000000 ) ) ;
#167 = DESIGN_CONTEXT ( 'detailed design', #253, 'design' ) ;
#168 = PRODUCT_DEFINITION_FORMATION_WITH_SPECIFIED_SOURCE ( 'ANY', '', #214, .NOT_KNOWN. ) ;
#169 = ADVANCED_FACE ( 'NONE', ( #241 ), #197, .F. ) ;
#170 = PLANE ( 'NONE',  #318 ) ;
#171 = ORIENTED_EDGE ( 'NONE', *, *, #222, .T. ) ;
#172 = DIRECTION ( 'NONE',  ( -1.000000000000000000, -0.000000000000000000, -0.000000000000000000 ) ) ;
#173 = PERSON_AND_ORGANIZATION ( #26, #239 ) ;
#174 = DATE_AND_TIME ( #224, #135 ) ;
#175 = PLANE ( 'NONE',  #2 ) ;
#176 = PERSON_AND_ORGANIZATION ( #26, #239 ) ;
#177 = ORIENTED_EDGE ( 'NONE', *, *, #198, .F. ) ;
#178 = APPLICATION_PROTOCOL_DEFINITION ( 'international standard', 'config_control_design', 1994, #209 ) ;
#179 = PERSON_AND_ORGANIZATION_ROLE ( 'classification_officer' ) ;
#180 = LINE ( 'NONE', #81, #269 ) ;
#181 = CC_DESIGN_APPROVAL ( #73, ( #64 ) ) ;
#182 = EDGE_LOOP ( 'NONE', ( #57, #27 ) ) ;
#183 = CARTESIAN_POINT ( 'NONE',  ( 3.000000000000000000, 0.000000000000000000, 0.000000000000000000 ) ) ;
#184 = DIRECTION ( 'NONE',  ( -1.000000000000000000, -0.000000000000000000, -0.000000000000000000 ) ) ;
#185 = DIRECTION ( 'NONE',  ( 0.000000000000000000, 0.000000000000000000, 1.000000000000000000 ) ) ;
#186 = ADVANCED_FACE ( 'NONE', ( #87 ), #170, .F. ) ;
#187 = CARTESIAN_POINT ( 'NONE',  ( -3.000000000000000000, 0.000000000000000000, 0.000000000000000000 ) ) ;
#188 = AXIS2_PLACEMENT_3D ( 'NONE', #154, #264, #70 ) ;
#189 = DIRECTION ( 'NONE',  ( -1.000000000000000000, -0.000000000000000000, -0.000000000000000000 ) ) ;
#190 = CARTESIAN_POINT ( 'NONE',  ( 3.000000000000000000, 0.000000000000000000, 0.000000000000000000 ) ) ;
#191 = AXIS2_PLACEMENT_3D ( 'NONE', #4, #219, #113 ) ;
#192 = DIRECTION ( 'NONE',  ( -1.000000000000000000, -0.000000000000000000, -0.000000000000000000 ) ) ;
#193 = CC_DESIGN_DATE_AND_TIME_ASSIGNMENT ( #22, #257, ( #64 ) ) ;
#194 = CARTESIAN_POINT ( 'NONE',  ( -3.000000000000000000, 0.000000000000000000, 12.69999999999999929 ) ) ;
#195 = COORDINATED_UNIVERSAL_TIME_OFFSET ( 8, 0, .AHEAD. ) ;
#196 = CC_DESIGN_APPROVAL ( #245, ( #168 ) ) ;
#197 = CYLINDRICAL_SURFACE ( 'NONE', #329, 5.000000000000000888 ) ;
#198 = EDGE_CURVE ( 'NONE', #203, #3, #20, .T. ) ;
#199 = LINE ( 'NONE', #43, #152 ) ;
#200 = PERSON_AND_ORGANIZATION_ROLE ( 'creator' ) ;
#201 = EDGE_CURVE ( 'NONE', #56, #131, #259, .T. ) ;
#202 = CARTESIAN_POINT ( 'NONE',  ( 0.000000000000000000, 0.000000000000000000, 0.000000000000000000 ) ) ;
#203 = VERTEX_POINT ( 'NONE', #118 ) ;
#204 = PERSON_AND_ORGANIZATION ( #26, #239 ) ;
#205 = CARTESIAN_POINT ( 'NONE',  ( 3.000000000000000000, 1.555301434917138433E-15, -12.69999999999999929 ) ) ;
#206 = ORIENTED_EDGE ( 'NONE', *, *, #249, .F. ) ;
#207 = EDGE_CURVE ( 'NONE', #238, #131, #67, .T. ) ;
#208 = ORIENTED_EDGE ( 'NONE', *, *, #146, .F. ) ;
#209 = APPLICATION_CONTEXT ( 'configuration controlled 3d designs of mechanical parts and assemblies' ) ;
#210 =( GEOMETRIC_REPRESENTATION_CONTEXT ( 3 ) GLOBAL_UNCERTAINTY_ASSIGNED_CONTEXT ( ( #332 ) ) GLOBAL_UNIT_ASSIGNED_CONTEXT ( ( #46, #254, #330 ) ) REPRESENTATION_CONTEXT ( 'NONE', 'WORKASPACE' ) );
#211 = CC_DESIGN_SECURITY_CLASSIFICATION ( #226, ( #168 ) ) ;
#212 = EDGE_CURVE ( 'NONE', #3, #335, #36, .T. ) ;
#213 = ORIENTED_EDGE ( 'NONE', *, *, #80, .T. ) ;
#214 = PRODUCT ( 'Q-OZHWP-R2-10-405-M', 'Q-OZHWP-R2-10-405-M', '', ( #100 ) ) ;
#215 = CARTESIAN_POINT ( 'NONE',  ( 1.250000000000000444, 0.000000000000000000, 0.000000000000000000 ) ) ;
#216 = CIRCLE ( 'NONE', #327, 12.69999999999999929 ) ;
#217 = FACE_BOUND ( 'NONE', #307, .T. ) ;
#218 = DIRECTION ( 'NONE',  ( 0.000000000000000000, 0.000000000000000000, 1.000000000000000000 ) ) ;
#219 = DIRECTION ( 'NONE',  ( -1.000000000000000000, -0.000000000000000000, -0.000000000000000000 ) ) ;
#220 = DIRECTION ( 'NONE',  ( 0.000000000000000000, 0.000000000000000000, -1.000000000000000000 ) ) ;
#221 = APPROVAL_PERSON_ORGANIZATION ( #124, #245, #47 ) ;
#222 = EDGE_CURVE ( 'NONE', #3, #203, #216, .T. ) ;
#223 = CARTESIAN_POINT ( 'NONE',  ( -3.000000000000000000, 1.555301434917138433E-15, -12.69999999999999929 ) ) ;
#224 = CALENDAR_DATE ( 2020, 22, 12 ) ;
#225 = DIRECTION ( 'NONE',  ( -1.000000000000000000, -0.000000000000000000, -0.000000000000000000 ) ) ;
#226 = SECURITY_CLASSIFICATION ( '', '', #99 ) ;
#227 = VECTOR ( 'NONE', #189, 1000.000000000000000 ) ;
#228 = ADVANCED_FACE ( 'NONE', ( #217, #293 ), #60, .F. ) ;
#229 = ORIENTED_EDGE ( 'NONE', *, *, #201, .F. ) ;
#230 = PERSON_AND_ORGANIZATION ( #26, #239 ) ;
#231 = AXIS2_PLACEMENT_3D ( 'NONE', #17, #141, #7 ) ;
#232 = COORDINATED_UNIVERSAL_TIME_OFFSET ( 8, 0, .AHEAD. ) ;
#233 = ORIENTED_EDGE ( 'NONE', *, *, #198, .T. ) ;
#234 = ORIENTED_EDGE ( 'NONE', *, *, #311, .F. ) ;
#235 = ADVANCED_FACE ( 'NONE', ( #274 ), #120, .T. ) ;
#236 = AXIS2_PLACEMENT_3D ( 'NONE', #58, #164, #272 ) ;
#237 = ORIENTED_EDGE ( 'NONE', *, *, #37, .T. ) ;
#238 = VERTEX_POINT ( 'NONE', #244 ) ;
#239 = ORGANIZATION ( 'UNSPECIFIED', 'UNSPECIFIED', '' ) ;
#240 = EDGE_LOOP ( 'NONE', ( #229, #163 ) ) ;
#241 = FACE_OUTER_BOUND ( 'NONE', #45, .T. ) ;
#242 = CIRCLE ( 'NONE', #231, 5.000000000000000888 ) ;
#243 = DIRECTION ( 'NONE',  ( -1.000000000000000000, -0.000000000000000000, -0.000000000000000000 ) ) ;
#244 = CARTESIAN_POINT ( 'NONE',  ( 3.000000000000000000, 6.123233995736768255E-16, -5.000000000000001776 ) ) ;
#245 = APPROVAL ( #128, 'UNSPECIFIED' ) ;
#246 = CARTESIAN_POINT ( 'NONE',  ( -1.614212418857619014, 0.000000000000000000, 0.000000000000000000 ) ) ;
#247 = AXIS2_PLACEMENT_3D ( 'NONE', #273, #184, #137 ) ;
#248 = DIRECTION ( 'NONE',  ( 1.000000000000000000, 0.000000000000000000, 0.000000000000000000 ) ) ;
#249 = EDGE_CURVE ( 'NONE', #271, #238, #116, .T. ) ;
#250 = DIRECTION ( 'NONE',  ( 0.000000000000000000, 0.000000000000000000, 1.000000000000000000 ) ) ;
#251 = VERTEX_POINT ( 'NONE', #13 ) ;
#252 = DIRECTION ( 'NONE',  ( -0.000000000000000000, 0.000000000000000000, 1.000000000000000000 ) ) ;
#253 = APPLICATION_CONTEXT ( 'configuration controlled 3d designs of mechanical parts and assemblies' ) ;
#254 =( NAMED_UNIT ( * ) PLANE_ANGLE_UNIT ( ) SI_UNIT ( $, .RADIAN. ) );
#255 = PERSON_AND_ORGANIZATION ( #26, #239 ) ;
#256 = DIRECTION ( 'NONE',  ( -1.000000000000000000, -0.000000000000000000, -0.000000000000000000 ) ) ;
#257 = DATE_TIME_ROLE ( 'creation_date' ) ;
#258 = ORIENTED_EDGE ( 'NONE', *, *, #146, .T. ) ;
#259 = CIRCLE ( 'NONE', #38, 5.000000000000000000 ) ;
#260 = APPROVAL_ROLE ( '' ) ;
#261 = CALENDAR_DATE ( 2020, 22, 12 ) ;
#262 = AXIS2_PLACEMENT_3D ( 'NONE', #119, #314, #148 ) ;
#263 = VERTEX_POINT ( 'NONE', #315 ) ;
#264 = DIRECTION ( 'NONE',  ( -1.000000000000000000, 0.000000000000000000, -0.000000000000000000 ) ) ;
#265 = DIRECTION ( 'NONE',  ( -1.000000000000000000, -0.000000000000000000, -0.000000000000000000 ) ) ;
#266 = EDGE_CURVE ( 'NONE', #238, #271, #28, .T. ) ;
#267 = AXIS2_PLACEMENT_3D ( 'NONE', #183, #33, #319 ) ;
#268 = ORIENTED_EDGE ( 'NONE', *, *, #291, .F. ) ;
#269 = VECTOR ( 'NONE', #265, 1000.000000000000000 ) ;
#270 = EDGE_CURVE ( 'NONE', #151, #263, #303, .T. ) ;
#271 = VERTEX_POINT ( 'NONE', #300 ) ;
#272 = DIRECTION ( 'NONE',  ( 0.000000000000000000, 0.000000000000000000, -1.000000000000000000 ) ) ;
#273 = CARTESIAN_POINT ( 'NONE',  ( -1.614212418857619014, 0.000000000000000000, 0.000000000000000000 ) ) ;
#274 = FACE_OUTER_BOUND ( 'NONE', #106, .T. ) ;
#275 = CYLINDRICAL_SURFACE ( 'NONE', #10, 5.000000000000000888 ) ;
#276 = ADVANCED_FACE ( 'NONE', ( #89 ), #296, .F. ) ;
#277 = VECTOR ( 'NONE', #280, 1000.000000000000000 ) ;
#278 = CARTESIAN_POINT ( 'NONE',  ( -1.614212418857619014, 1.555301434917138433E-15, -12.69999999999999929 ) ) ;
#279 = EDGE_LOOP ( 'NONE', ( #1, #310, #112, #83 ) ) ;
#280 = DIRECTION ( 'NONE',  ( -1.000000000000000000, -0.000000000000000000, -0.000000000000000000 ) ) ;
#281 = DATE_TIME_ROLE ( 'classification_date' ) ;
#282 = DIRECTION ( 'NONE',  ( 0.000000000000000000, 0.000000000000000000, -1.000000000000000000 ) ) ;
#283 = CALENDAR_DATE ( 2020, 22, 12 ) ;
#284 = LOCAL_TIME ( 17, 11, 43.00000000000000000, #71 ) ;
#285 = DIRECTION ( 'NONE',  ( 0.000000000000000000, 0.000000000000000000, 1.000000000000000000 ) ) ;
#286 = PERSON_AND_ORGANIZATION ( #26, #239 ) ;
#287 = ADVANCED_FACE ( 'NONE', ( #308, #304 ), #123, .F. ) ;
#288 = VERTEX_POINT ( 'NONE', #194 ) ;
#289 = PERSON_AND_ORGANIZATION_ROLE ( 'design_owner' ) ;
#290 = ORIENTED_EDGE ( 'NONE', *, *, #133, .F. ) ;
#291 = EDGE_CURVE ( 'NONE', #203, #288, #199, .T. ) ;
#292 = DIRECTION ( 'NONE',  ( 0.000000000000000000, 0.000000000000000000, 1.000000000000000000 ) ) ;
#293 = FACE_OUTER_BOUND ( 'NONE', #54, .T. ) ;
#294 = CARTESIAN_POINT ( 'NONE',  ( 1.250000000000000444, 6.123233995736766282E-16, -5.000000000000000000 ) ) ;
#295 = ADVANCED_FACE ( 'NONE', ( #74 ), #175, .F. ) ;
#296 = CYLINDRICAL_SURFACE ( 'NONE', #297, 5.000000000000000888 ) ;
#297 = AXIS2_PLACEMENT_3D ( 'NONE', #62, #172, #166 ) ;
#298 = DIRECTION ( 'NONE',  ( 0.000000000000000000, 0.000000000000000000, 1.000000000000000000 ) ) ;
#299 = AXIS2_PLACEMENT_3D ( 'NONE', #215, #316, #292 ) ;
#300 = CARTESIAN_POINT ( 'NONE',  ( 3.000000000000000000, 0.000000000000000000, 5.000000000000001776 ) ) ;
#301 = CARTESIAN_POINT ( 'NONE',  ( -1.250000000000000222, 5.000000000000000000, 0.000000000000000000 ) ) ;
#302 = APPROVAL_DATE_TIME ( #16, #245 ) ;
#303 = CIRCLE ( 'NONE', #108, 5.000000000000000000 ) ;
#304 = FACE_BOUND ( 'NONE', #134, .T. ) ;
#305 = CARTESIAN_POINT ( 'NONE',  ( -1.614212418857619014, 0.000000000000000000, 0.000000000000000000 ) ) ;
#306 = APPROVAL_STATUS ( 'not_yet_approved' ) ;
#307 = EDGE_LOOP ( 'NONE', ( #159, #107 ) ) ;
#308 = FACE_OUTER_BOUND ( 'NONE', #72, .T. ) ;
#309 = VERTEX_POINT ( 'NONE', #77 ) ;
#310 = ORIENTED_EDGE ( 'NONE', *, *, #311, .T. ) ;
#311 = EDGE_CURVE ( 'NONE', #251, #263, #21, .T. ) ;
#312 = EDGE_LOOP ( 'NONE', ( #29, #171, #126, #290 ) ) ;
#313 = CARTESIAN_POINT ( 'NONE',  ( -3.000000000000000000, 0.000000000000000000, 5.000000000000000000 ) ) ;
#314 = DIRECTION ( 'NONE',  ( -1.000000000000000000, -0.000000000000000000, -0.000000000000000000 ) ) ;
#315 = CARTESIAN_POINT ( 'NONE',  ( -3.000000000000000000, 6.123233995736766282E-16, -5.000000000000000000 ) ) ;
#316 = DIRECTION ( 'NONE',  ( -1.000000000000000000, -0.000000000000000000, -0.000000000000000000 ) ) ;
#317 = CARTESIAN_POINT ( 'NONE',  ( 1.250000000000000222, 5.000000000000000000, 0.000000000000000000 ) ) ;
#318 = AXIS2_PLACEMENT_3D ( 'NONE', #317, #39, #252 ) ;
#319 = DIRECTION ( 'NONE',  ( 0.000000000000000000, 0.000000000000000000, 1.000000000000000000 ) ) ;
#320 = FACE_OUTER_BOUND ( 'NONE', #312, .T. ) ;
#321 = CC_DESIGN_PERSON_AND_ORGANIZATION_ASSIGNMENT ( #173, #200, ( #168 ) ) ;
#322 = DIRECTION ( 'NONE',  ( -1.000000000000000000, -0.000000000000000000, -0.000000000000000000 ) ) ;
#323 = DIRECTION ( 'NONE',  ( -1.000000000000000000, -0.000000000000000000, -0.000000000000000000 ) ) ;
#324 = ORIENTED_EDGE ( 'NONE', *, *, #266, .F. ) ;
#325 = PERSON_AND_ORGANIZATION_ROLE ( 'creator' ) ;
#326 = DIRECTION ( 'NONE',  ( 0.000000000000000000, 0.000000000000000000, 1.000000000000000000 ) ) ;
#327 = AXIS2_PLACEMENT_3D ( 'NONE', #147, #142, #218 ) ;
#328 = COORDINATED_UNIVERSAL_TIME_OFFSET ( 8, 0, .AHEAD. ) ;
#329 = AXIS2_PLACEMENT_3D ( 'NONE', #305, #225, #326 ) ;
#330 =( NAMED_UNIT ( * ) SI_UNIT ( $, .STERADIAN. ) SOLID_ANGLE_UNIT ( ) );
#331 = APPROVAL_ROLE ( '' ) ;
#332 = UNCERTAINTY_MEASURE_WITH_UNIT (LENGTH_MEASURE( 1.000000000000000082E-05 ), #46, 'distance_accuracy_value', 'NONE');
#333 = PRODUCT_DEFINITION_SHAPE ( 'NONE', 'NONE',  #64 ) ;
#334 = CARTESIAN_POINT ( 'NONE',  ( 1.250000000000000444, 0.000000000000000000, 5.000000000000000000 ) ) ;
#335 = VERTEX_POINT ( 'NONE', #223 ) ;
ENDSEC;
END-ISO-10303-21;
